  0
SECTION
  2
HEADER
  9
$ACADVER
  1
AC1004
  9
$INSBASE
 10
0.0
 20
0.0
  9
$EXTMIN
 10
-165.433333
 20
-172.375
  9
$EXTMAX
 10
5084.566667
 20
7252.625
  9
$LIMMIN
 10
-165.433333
 20
-172.375
  9
$LIMMAX
 10
5084.566667
 20
7252.625
  9
$VIEWCTR
 10
6.0
 20
4.5
  9
$VIEWSIZE
 40
9.0
  9
$SNAPMODE
 70
     0
  9
$SNAPUNIT
 10
50.0
 20
50.0
  9
$SNAPBASE
 10
0.0
 20
0.0
  9
$SNAPANG
 50
0.0
  9
$SNAPSTYLE
 70
     0
  9
$SNAPISOPAIR
 70
     0
  9
$GRIDMODE
 70
     1
  9
$GRIDUNIT
 10
100.0
 20
100.0
  9
$ORTHOMODE
 70
     0
  9
$REGENMODE
 70
     1
  9
$FILLMODE
 70
     1
  9
$QTEXTMODE
 70
     0
  9
$DRAGMODE
 70
     2
  9
$LTSCALE
 40
1.0
  9
$OSMODE
 70
     1
  9
$ATTMODE
 70
     1
  9
$TEXTSIZE
 40
0.2
  9
$TRACEWID
 40
0.05
  9
$TEXTSTYLE
  7
STANDARD
  9
$CLAYER
  8
DATA
  9
$CELTYPE
  6
CONTINUOUS
  9
$CECOLOR
 62
     7
  9
$DIMSCALE
 40
1.0
  9
$DIMASZ
 40
0.18
  9
$DIMEXO
 40
0.0625
  9
$DIMDLI
 40
0.38
  9
$DIMRND
 40
0.0
  9
$DIMDLE
 40
0.0
  9
$DIMEXE
 40
0.18
  9
$DIMTP
 40
0.0
  9
$DIMTM
 40
0.0
  9
$DIMTXT
 40
0.18
  9
$DIMCEN
 40
0.09
  9
$DIMTSZ
 40
0.0
  9
$DIMTOL
 70
     0
  9
$DIMLIM
 70
     0
  9
$DIMTIH
 70
     1
  9
$DIMTOH
 70
     1
  9
$DIMSE1
 70
     0
  9
$DIMSE2
 70
     0
  9
$DIMTAD
 70
     0
  9
$DIMZIN
 70
     0
  9
$DIMBLK
  1

  9
$DIMASO
 70
     1
  9
$DIMSHO
 70
     1
  9
$DIMPOST
  1

  9
$DIMAPOST
  1

  9
$DIMALT
 70
     0
  9
$DIMALTD
 70
     2
  9
$DIMALTF
 40
25.4
  9
$DIMLFAC
 40
1.0
  9
$LUNITS
 70
     2
  9
$LUPREC
 70
     4
  9
$AXISMODE
 70
     0
  9
$AXISUNIT
 10
0.0
 20
0.0
  9
$SKETCHINC
 40
0.1
  9
$FILLETRAD
 40
5.0
  9
$AUNITS
 70
     0
  9
$AUPREC
 70
     0
  9
$MENU
  1
acad
  9
$ELEVATION
 40
0.0
  9
$THICKNESS
 40
0.0
  9
$VIEWDIR
 10
0.0
 20
0.0
 30
1.0
  9
$LIMCHECK
 70
     0
  9
$BLIPMODE
 70
     1
  9
$CHAMFERA
 40
0.0
  9
$CHAMFERB
 40
0.0
  9
$FASTZOOM
 70
     1
  9
$SKPOLY
 70
     0
  9
$TDCREATE
 40
0.0
  9
$TDUPDATE
 40
0.0
  9
$TDINDWG
 40
0.0
  9
$TDUSRTIMER
 40
0.0
  9
$USRTIMER
 70
     1
  9
$ANGBASE
 50
0.0
  9
$ANGDIR
 70
     0
  9
$PDMODE
 70
     0
  9
$PDSIZE
 40
0.0
  9
$PLINEWID
 40
0.0
  9
$COORDS
 70
     1
  9
$SPLFRAME
 70
     0
  9
$SPLINESEGS
 70
    10
  9
$ATTDIA
 70
     0
  9
$ATTREQ
 70
     1
  9
$USERI1
 70
     0
  9
$USERI2
 70
     0
  9
$USERI3
 70
     0
  9
$USERI4
 70
     0
  9
$USERI5
 70
     0
  9
$USERR1
 40
0.0
  9
$USERR2
 40
0.0
  9
$USERR3
 40
0.0
  9
$USERR4
 40
0.0
  9
$USERR5
 40
0.0
  0
ENDSEC
  0
SECTION
  2
TABLES
  0
TABLE
  2
LTYPE
 70
    11
  0
LTYPE
  2
CONTINUOUS
 70
     0
  3
Solid line
 72
    65
 73
     0
 40
0.0
  0
LTYPE
  2
DASHED
 70
     0
  3
__ __ __ __ __ __ __ __ __ __ __ __ __ __ __
 72
    65
 73
     2
 40
0.75
 49
0.5
 49
-0.25
  0
LTYPE
  2
HIDDEN
 70
     0
  3
_ _ _ _ _ _ _ _ _ _ _ _ _ _ _ _ _ _ _ _ _ _ 
 72
    65
 73
     2
 40
0.25
 49
0.125
 49
-0.125
  0
LTYPE
  2
CENTER
 70
     0
  3
____ _ ____ _ ____ _ ____ _ ____ _ ____ _ __
 72
    65
 73
     4
 40
2.0
 49
1.25
 49
-0.25
 49
0.25
 49
-0.25
  0
LTYPE
  2
PHANTOM
 70
     0
  3
_____ _ _ _____ _ _ _____ _ _ _____ _ _ ____
 72
    65
 73
     6
 40
2.5
 49
1.25
 49
-0.25
 49
0.25
 49
-0.25
 49
0.25
 49
-0.25
  0
LTYPE
  2
DOT
 70
     0
  3
............................................
 72
    65
 73
     2
 40
0.25
 49
0.0
 49
-0.25
  0
LTYPE
  2
DASHDOT
 70
     0
  3
__ . __ . __ . __ . __ . __ . __ . __ . __ .
 72
    65
 73
     4
 40
1.0
 49
0.5
 49
-0.25
 49
0.0
 49
-0.25
  0
LTYPE
  2
BORDER
 70
     0
  3
__ __ . __ __ . __ __ . __ __ . __ __ . __ _
 72
    65
 73
     6
 40
1.75
 49
0.5
 49
-0.25
 49
0.5
 49
-0.25
 49
0.0
 49
-0.25
  0
LTYPE
  2
DIVIDE
 70
     0
  3
__ . . __ . . __ . . __ . . __ . . __ . . __
 72
    65
 73
     6
 40
1.25
 49
0.5
 49
-0.25
 49
0.0
 49
-0.25
 49
0.0
 49
-0.25
  0
LTYPE
  2
DOTS
 70
     0
  3
close                                       
 72
    65
 73
     2
 40
0.1
 49
0.05
 49
-0.05
  0
LTYPE
  2
CLOSE
 70
     0
  3
                                            
 72
    65
 73
     0
 40
0.0
  0
ENDTAB
  0
TABLE
  2
LAYER
 70
     6
  0
LAYER
  2
0
 70
     0
 62
     7
  6
CONTINUOUS
  0
LAYER
  2
LAYER01
 70
     0
 62
     7
  6
CONTINUOUS
  0
LAYER
  2
DATA
 70
     0
 62
     7
  6
CONTINUOUS
  0
LAYER
  2
DIMENSIONS
 70
     0
 62
     7
  6
CONTINUOUS
  0
LAYER
  2
SPEC
 70
     0
 62
     7
  6
CONTINUOUS
  0
LAYER
  2
HIBINO-BASE
 70
     0
 62
     7
  6
CONTINUOUS
  0
ENDTAB
  0
TABLE
  2
STYLE
 70
     2
  0
STYLE
  2
STANDARD
 70
     0
 40
0.0
 41
1.0
 50
0.0
 71
     0
 42
0.2
  3
txt
  4

  0
STYLE
  2
TTF_DEFAULT
 70
     0
 40
0.0
 41
1.0
 50
0.0
 71
     0
 42
0.0
  3
txt
  4
BIGFONT
  0
ENDTAB
  0
TABLE
  2
VIEW
 70
     0
  0
ENDTAB
  0
ENDSEC
  0
SECTION
  2
BLOCKS
  0
ENDSEC
  0
SECTION
  2
ENTITIES
  0
LINE
  8
SPEC
  6
CONTINUOUS
 62
     7
 10
437.5
 20
6625.0
 11
4000.0
 21
6625.0
  0
LINE
  8
SPEC
  6
CONTINUOUS
 62
     7
 10
437.5
 20
6531.25
 11
4000.0
 21
6531.25
  0
LINE
  8
SPEC
  6
CONTINUOUS
 62
     7
 10
437.5
 20
6156.25
 11
4000.0
 21
6156.25
  0
LINE
  8
SPEC
  6
CONTINUOUS
 62
     7
 10
437.5
 20
6250.0
 11
4000.0
 21
6250.0
  0
LINE
  8
SPEC
  6
CONTINUOUS
 62
     7
 10
437.5
 20
6062.5
 11
4000.0
 21
6062.5
  0
TEXT
  8
SPEC
  6
CONTINUOUS
 62
     7
 10
1265.625
 20
6453.125
 40
62.5
  1
XLR入力からダイレクト出力 (VCA OFF)：0.004%以下 (@1kHz) , 0.02%以下 (@10kHz)
  7
TTF_DEFAULT
  0
TEXT
  8
SPEC
  6
CONTINUOUS
 62
     7
 10
1265.625
 20
6384.375
 40
62.499984
  1
XLR入力からダイレクト出力 (VCA ON) ：0.015%以下 (@1kHz) , 0.04%以下 (@10kHz)
  7
TTF_DEFAULT
  0
TEXT
  8
SPEC
  6
CONTINUOUS
 62
     7
 10
1265.625
 20
6315.625
 40
62.499984
  1
XLR入力からMIX出力 (VCA OFF)：0.005%以下 (@1kHz) , 0.02%以下 (@10kHz)
  7
TTF_DEFAULT
  0
TEXT
  8
SPEC
  6
CONTINUOUS
 62
     7
 10
1265.625
 20
6171.875
 40
62.5
  1
22Hz～22kHzバンドワイズ、アンウエイテッド : -127.5dBu以下 / 200Ωソース
  7
TTF_DEFAULT
  0
TEXT
  8
SPEC
  6
CONTINUOUS
 62
     7
 10
1265.625
 20
6078.125
 40
62.5
  1
ミックス出力（入力なし）MIXフェーダ@0dB位置 : -90dBu
  7
TTF_DEFAULT
  0
TEXT
  8
SPEC
  6
CONTINUOUS
 62
     7
 10
1265.625
 20
5984.375
 40
62.5
  1
MIX出力 (32ch) 入力フェーダ@∞位置、MIXフェーダ@0dB位置 : -78dBu以下
  7
TTF_DEFAULT
  0
LINE
  8
SPEC
  6
CONTINUOUS
 62
     7
 10
437.5
 20
5875.0
 11
4000.0
 21
5875.0
  0
TEXT
  8
SPEC
  6
CONTINUOUS
 62
     7
 10
1265.625
 20
5915.625
 40
62.499984
  1
グループ出力 (32ch) , 入力フェーダ@∞位置、グループフェーダ@0dB位置 : -78dBu以下
  7
TTF_DEFAULT
  0
LINE
  8
SPEC
  6
CONTINUOUS
 62
     7
 10
437.5
 20
5218.75
 11
4000.0
 21
5218.75
  0
LINE
  8
SPEC
  6
CONTINUOUS
 62
     7
 10
437.5
 20
4843.75
 11
4000.0
 21
4843.75
  0
POLYLINE
  8
HIBINO-BASE
  6
CONTINUOUS
 62
     7
 66
     1
 70
     1
 40
6.0
 41
6.0
  0
VERTEX
  8
HIBINO-BASE
 10
250.0
 20
375.0
  0
VERTEX
  8
HIBINO-BASE
 10
250.0
 20
6875.0
  0
VERTEX
  8
HIBINO-BASE
 10
4750.0
 20
6875.0
  0
VERTEX
  8
HIBINO-BASE
 10
4750.0
 20
375.0
  0
SEQEND
  8
HIBINO-BASE
  0
LINE
  8
DATA
  6
CONTINUOUS
 62
     7
 10
715.07784
 20
2314.0
 11
3216.54016
 21
2314.0
  0
LINE
  8
DATA
  6
CONTINUOUS
 62
     7
 10
738.11344
 20
1400.0
 11
3193.50456
 21
1400.0
  0
LINE
  8
DIMENSIONS
  6
CONTINUOUS
 62
     7
 10
700.0
 20
3150.0
 11
2969.744
 21
3150.0
  0
LINE
  8
DIMENSIONS
  6
CONTINUOUS
 62
     7
 10
700.0
 20
3000.0
 11
2707.87
 21
3000.0
  0
LINE
  8
DIMENSIONS
  6
CONTINUOUS
 62
     7
 10
700.0
 20
3300.0
 11
3231.618
 21
3300.0
  0
LINE
  8
DATA
  6
CONTINUOUS
 62
     7
 10
754.37784
 20
1460.0
 11
2129.49016
 21
1460.0
  0
LINE
  8
DATA
  6
CONTINUOUS
 62
     7
 10
754.37784
 20
1651.08
 11
2129.49016
 21
1651.08
  0
LINE
  8
DATA
  6
CONTINUOUS
 62
     7
 10
754.37784
 20
1669.8
 11
2129.49016
 21
1669.8
  0
LINE
  8
DATA
  6
CONTINUOUS
 62
     7
 10
754.37784
 20
2194.8
 11
2129.49016
 21
2194.8
  0
LINE
  8
DATA
  6
CONTINUOUS
 62
     7
 10
732.38504
 20
2203.66
 11
2151.48296
 21
2203.66
  0
LINE
  8
DATA
  6
CONTINUOUS
 62
     7
 10
730.510239
 20
2217.0
 11
2153.357761
 21
2217.0
  0
LINE
  8
DIMENSIONS
  6
CONTINUOUS
 62
     7
 10
700.0
 20
2850.0
 11
2445.742
 21
2850.0
  0
LINE
  8
DIMENSIONS
  6
CONTINUOUS
 62
     7
 10
700.0
 20
2700.0
 11
2183.868
 21
2700.0
  0
LINE
  8
DIMENSIONS
  6
CONTINUOUS
 62
     7
 10
700.0
 20
2500.0
 11
1621.0
 21
2500.0
  0
TEXT
  8
DIMENSIONS
  6
CONTINUOUS
 62
     7
 10
1109.623438
 20
2531.25
 40
62.5
  1
921
  7
TTF_DEFAULT
  0
TEXT
  8
HIBINO-BASE
  6
CONTINUOUS
 62
     7
 10
429.6
 20
214.783
 40
100.0
  1
Hibino Corporation
  7
TTF_DEFAULT
  0
LINE
  8
DATA
  6
CONTINUOUS
 62
     7
 10
724.67784
 20
1403.6
 11
724.67784
 21
2314.0
  0
LINE
  8
DATA
  6
CONTINUOUS
 62
     7
 10
749.97784
 20
1400.0
 11
749.97784
 21
2314.0
  0
LINE
  8
DATA
  6
CONTINUOUS
 62
     7
 10
754.37784
 20
1400.0
 11
754.37784
 21
2314.0
  0
LINE
  8
DATA
  6
CONTINUOUS
 62
     7
 10
786.97784
 20
1669.8
 11
786.97784
 21
2194.8
  0
LINE
  8
DATA
  6
CONTINUOUS
 62
     7
 10
788.47784
 20
1669.8
 11
788.47784
 21
2194.8
  0
LINE
  8
DATA
  6
CONTINUOUS
 62
     7
 10
819.77034
 20
1669.8
 11
819.77034
 21
2194.8
  0
LINE
  8
DATA
  6
CONTINUOUS
 62
     7
 10
821.27034
 20
1669.8
 11
821.27034
 21
2194.8
  0
LINE
  8
DATA
  6
CONTINUOUS
 62
     7
 10
852.56284
 20
1669.8
 11
852.56284
 21
2194.8
  0
LINE
  8
DATA
  6
CONTINUOUS
 62
     7
 10
854.06284
 20
1669.8
 11
854.06284
 21
2194.8
  0
LINE
  8
DATA
  6
CONTINUOUS
 62
     7
 10
885.35534
 20
1669.8
 11
885.35534
 21
2194.8
  0
LINE
  8
DATA
  6
CONTINUOUS
 62
     7
 10
886.85534
 20
1669.8
 11
886.85534
 21
2194.8
  0
LINE
  8
DATA
  6
CONTINUOUS
 62
     7
 10
918.14784
 20
1669.8
 11
918.14784
 21
2194.8
  0
LINE
  8
DATA
  6
CONTINUOUS
 62
     7
 10
919.64784
 20
1669.8
 11
919.64784
 21
2194.8
  0
LINE
  8
DATA
  6
CONTINUOUS
 62
     7
 10
950.94034
 20
1669.8
 11
950.94034
 21
2194.8
  0
LINE
  8
DATA
  6
CONTINUOUS
 62
     7
 10
952.44034
 20
1669.8
 11
952.44034
 21
2194.8
  0
LINE
  8
DATA
  6
CONTINUOUS
 62
     7
 10
983.73284
 20
1669.8
 11
983.73284
 21
2194.8
  0
LINE
  8
DATA
  6
CONTINUOUS
 62
     7
 10
985.23284
 20
1669.8
 11
985.23284
 21
2194.8
  0
LINE
  8
DATA
  6
CONTINUOUS
 62
     7
 10
1016.52534
 20
1669.8
 11
1016.52534
 21
2194.8
  0
LINE
  8
DATA
  6
CONTINUOUS
 62
     7
 10
1018.02534
 20
1669.8
 11
1018.02534
 21
2194.8
  0
LINE
  8
DATA
  6
CONTINUOUS
 62
     7
 10
1049.31784
 20
1669.8
 11
1049.31784
 21
2194.8
  0
LINE
  8
DATA
  6
CONTINUOUS
 62
     7
 10
1050.81784
 20
1669.8
 11
1050.81784
 21
2194.8
  0
LINE
  8
DATA
  6
CONTINUOUS
 62
     7
 10
1082.11034
 20
1669.8
 11
1082.11034
 21
2194.8
  0
LINE
  8
DATA
  6
CONTINUOUS
 62
     7
 10
1083.61034
 20
1669.8
 11
1083.61034
 21
2194.8
  0
LINE
  8
DATA
  6
CONTINUOUS
 62
     7
 10
1114.90284
 20
1669.8
 11
1114.90284
 21
2194.8
  0
LINE
  8
DATA
  6
CONTINUOUS
 62
     7
 10
1116.40284
 20
1669.8
 11
1116.40284
 21
2194.8
  0
ARC
  8
DATA
  6
CONTINUOUS
 62
     7
 10
1532.697275
 20
1619.334131
 40
832.697275
 50
170.671674
 51
190.919962
  0
LINE
  8
DIMENSIONS
  6
CONTINUOUS
 62
     7
 10
600.0
 20
2314.0
 11
600.0
 21
1400.0
  0
LINE
  8
DATA
  6
CONTINUOUS
 62
     7
 10
886.10534
 20
1649.2
 11
886.10534
 21
1460.0
  0
LINE
  8
DATA
  6
CONTINUOUS
 62
     7
 10
724.67784
 20
1403.6
 11
738.11344
 21
1400.0
  0
LINE
  8
DATA
  6
CONTINUOUS
 62
     7
 10
715.07784
 20
1461.59
 11
724.67784
 21
1461.59
  0
LINE
  8
DATA
  6
CONTINUOUS
 62
     7
 10
1017.27534
 20
1649.2
 11
1017.27534
 21
1460.0
  0
LINE
  8
DIMENSIONS
  6
CONTINUOUS
 62
     7
 10
713.11344
 20
1400.0
 11
568.75
 21
1400.0
  0
LINE
  8
DIMENSIONS
  6
CONTINUOUS
 62
     7
 10
591.667
 20
1450.0
 11
600.0
 21
1400.0
  0
LINE
  8
DIMENSIONS
  6
CONTINUOUS
 62
     7
 10
608.333
 20
1450.0
 11
600.0
 21
1400.0
  0
LINE
  8
DIMENSIONS
  6
CONTINUOUS
 62
     7
 10
700.0
 20
2181.255869
 11
700.0
 21
3331.25
  0
ARC
  8
DATA
  6
CONTINUOUS
 62
     7
 10
1532.697275
 20
2156.255869
 40
832.697275
 50
169.080038
 51
189.328326
  0
ARC
  8
DATA
  6
CONTINUOUS
 62
     7
 10
-1478.164766
 20
1887.795
 40
2193.242606
 50
356.510644
 51
3.489356
  0
LINE
  8
DATA
  6
CONTINUOUS
 62
     7
 10
724.67784
 20
2258.5
 11
732.38504
 21
2203.66
  0
LINE
  8
DIMENSIONS
  6
CONTINUOUS
 62
     7
 10
750.0
 20
2491.667
 11
700.0
 21
2500.0
  0
LINE
  8
DIMENSIONS
  6
CONTINUOUS
 62
     7
 10
750.0
 20
2508.333
 11
700.0
 21
2500.0
  0
LINE
  8
DIMENSIONS
  6
CONTINUOUS
 62
     7
 10
690.07784
 20
2314.0
 11
568.75
 21
2314.0
  0
LINE
  8
DIMENSIONS
  6
CONTINUOUS
 62
     7
 10
591.667
 20
2264.0
 11
600.0
 21
2314.0
  0
LINE
  8
DIMENSIONS
  6
CONTINUOUS
 62
     7
 10
608.333
 20
2264.0
 11
600.0
 21
2314.0
  0
TEXT
  8
DIMENSIONS
  6
CONTINUOUS
 62
     7
 10
568.75
 20
1781.727549
 40
62.5
  1
914
 50
90.0
  7
TTF_DEFAULT
  0
LINE
  8
DIMENSIONS
  6
CONTINUOUS
 62
     7
 10
750.0
 20
3141.667
 11
700.0
 21
3150.0
  0
LINE
  8
DIMENSIONS
  6
CONTINUOUS
 62
     7
 10
750.0
 20
3158.333
 11
700.0
 21
3150.0
  0
LINE
  8
DIMENSIONS
  6
CONTINUOUS
 62
     7
 10
750.0
 20
2991.667
 11
700.0
 21
3000.0
  0
LINE
  8
DIMENSIONS
  6
CONTINUOUS
 62
     7
 10
750.0
 20
3008.333
 11
700.0
 21
3000.0
  0
LINE
  8
DIMENSIONS
  6
CONTINUOUS
 62
     7
 10
750.0
 20
2841.667
 11
700.0
 21
2850.0
  0
LINE
  8
DIMENSIONS
  6
CONTINUOUS
 62
     7
 10
750.0
 20
2858.333
 11
700.0
 21
2850.0
  0
LINE
  8
DIMENSIONS
  6
CONTINUOUS
 62
     7
 10
750.0
 20
2691.667
 11
700.0
 21
2700.0
  0
LINE
  8
DIMENSIONS
  6
CONTINUOUS
 62
     7
 10
750.0
 20
2708.333
 11
700.0
 21
2700.0
  0
LINE
  8
DIMENSIONS
  6
CONTINUOUS
 62
     7
 10
750.0
 20
3291.667
 11
700.0
 21
3300.0
  0
LINE
  8
DIMENSIONS
  6
CONTINUOUS
 62
     7
 10
750.0
 20
3308.333
 11
700.0
 21
3300.0
  0
LINE
  8
DATA
  6
CONTINUOUS
 62
     7
 10
1147.69534
 20
1669.8
 11
1147.69534
 21
2194.8
  0
LINE
  8
DATA
  6
CONTINUOUS
 62
     7
 10
1149.19534
 20
1669.8
 11
1149.19534
 21
2194.8
  0
LINE
  8
DATA
  6
CONTINUOUS
 62
     7
 10
1180.48784
 20
1669.8
 11
1180.48784
 21
2194.8
  0
LINE
  8
DATA
  6
CONTINUOUS
 62
     7
 10
1181.98784
 20
1669.8
 11
1181.98784
 21
2194.8
  0
LINE
  8
DATA
  6
CONTINUOUS
 62
     7
 10
1213.28034
 20
1669.8
 11
1213.28034
 21
2194.8
  0
LINE
  8
DATA
  6
CONTINUOUS
 62
     7
 10
1214.78034
 20
1669.8
 11
1214.78034
 21
2194.8
  0
LINE
  8
DATA
  6
CONTINUOUS
 62
     7
 10
1246.07284
 20
1669.8
 11
1246.07284
 21
2194.8
  0
LINE
  8
DATA
  6
CONTINUOUS
 62
     7
 10
1247.57284
 20
1669.8
 11
1247.57284
 21
2194.8
  0
LINE
  8
DATA
  6
CONTINUOUS
 62
     7
 10
1278.86534
 20
1669.8
 11
1278.86534
 21
2194.8
  0
LINE
  8
DATA
  6
CONTINUOUS
 62
     7
 10
1280.36534
 20
1669.8
 11
1280.36534
 21
2194.8
  0
LINE
  8
DATA
  6
CONTINUOUS
 62
     7
 10
1311.65784
 20
1669.8
 11
1311.65784
 21
2194.8
  0
LINE
  8
DATA
  6
CONTINUOUS
 62
     7
 10
1313.15784
 20
1669.8
 11
1313.15784
 21
2194.8
  0
LINE
  8
DATA
  6
CONTINUOUS
 62
     7
 10
1344.45034
 20
1669.8
 11
1344.45034
 21
2194.8
  0
LINE
  8
DATA
  6
CONTINUOUS
 62
     7
 10
1345.95034
 20
1669.8
 11
1345.95034
 21
2194.8
  0
LINE
  8
DATA
  6
CONTINUOUS
 62
     7
 10
1377.24284
 20
1669.8
 11
1377.24284
 21
2194.8
  0
LINE
  8
DATA
  6
CONTINUOUS
 62
     7
 10
1378.74284
 20
1669.8
 11
1378.74284
 21
2194.8
  0
LINE
  8
DATA
  6
CONTINUOUS
 62
     7
 10
1410.03534
 20
1669.8
 11
1410.03534
 21
2194.8
  0
LINE
  8
DATA
  6
CONTINUOUS
 62
     7
 10
1411.53534
 20
1669.8
 11
1411.53534
 21
2194.8
  0
LINE
  8
DATA
  6
CONTINUOUS
 62
     7
 10
1442.82784
 20
1669.8
 11
1442.82784
 21
2194.8
  0
LINE
  8
DATA
  6
CONTINUOUS
 62
     7
 10
1444.32784
 20
1669.8
 11
1444.32784
 21
2194.8
  0
LINE
  8
DATA
  6
CONTINUOUS
 62
     7
 10
1475.62034
 20
1669.8
 11
1475.62034
 21
2194.8
  0
LINE
  8
DATA
  6
CONTINUOUS
 62
     7
 10
1477.12034
 20
1669.8
 11
1477.12034
 21
2194.8
  0
LINE
  8
DATA
  6
CONTINUOUS
 62
     7
 10
1508.41284
 20
1669.8
 11
1508.41284
 21
2194.8
  0
LINE
  8
DATA
  6
CONTINUOUS
 62
     7
 10
1509.91284
 20
1669.8
 11
1509.91284
 21
2194.8
  0
LINE
  8
DATA
  6
CONTINUOUS
 62
     7
 10
1541.20534
 20
1669.8
 11
1541.20534
 21
2194.8
  0
LINE
  8
DATA
  6
CONTINUOUS
 62
     7
 10
1542.70534
 20
1669.8
 11
1542.70534
 21
2194.8
  0
LINE
  8
DATA
  6
CONTINUOUS
 62
     7
 10
1573.99784
 20
1669.8
 11
1573.99784
 21
2194.8
  0
LINE
  8
DATA
  6
CONTINUOUS
 62
     7
 10
1575.49784
 20
1669.8
 11
1575.49784
 21
2194.8
  0
LINE
  8
DATA
  6
CONTINUOUS
 62
     7
 10
1606.79034
 20
1669.8
 11
1606.79034
 21
2194.8
  0
LINE
  8
DATA
  6
CONTINUOUS
 62
     7
 10
1608.29034
 20
1669.8
 11
1608.29034
 21
2194.8
  0
LINE
  8
DATA
  6
CONTINUOUS
 62
     7
 10
1639.58284
 20
1669.8
 11
1639.58284
 21
2194.8
  0
LINE
  8
DATA
  6
CONTINUOUS
 62
     7
 10
1641.08284
 20
1669.8
 11
1641.08284
 21
2194.8
  0
LINE
  8
DATA
  6
CONTINUOUS
 62
     7
 10
1672.37534
 20
1669.8
 11
1672.37534
 21
2194.8
  0
LINE
  8
DATA
  6
CONTINUOUS
 62
     7
 10
1673.87534
 20
1669.8
 11
1673.87534
 21
2194.8
  0
LINE
  8
DATA
  6
CONTINUOUS
 62
     7
 10
1687.07784
 20
1669.8
 11
1687.07784
 21
2194.8
  0
LINE
  8
DATA
  6
CONTINUOUS
 62
     7
 10
1688.57784
 20
1669.8
 11
1688.57784
 21
2194.8
  0
LINE
  8
DATA
  6
CONTINUOUS
 62
     7
 10
1719.87034
 20
1669.8
 11
1719.87034
 21
2194.8
  0
LINE
  8
DATA
  6
CONTINUOUS
 62
     7
 10
1721.37034
 20
1669.8
 11
1721.37034
 21
2194.8
  0
LINE
  8
DATA
  6
CONTINUOUS
 62
     7
 10
1752.66284
 20
1669.8
 11
1752.66284
 21
2194.8
  0
LINE
  8
DATA
  6
CONTINUOUS
 62
     7
 10
1754.16284
 20
1669.8
 11
1754.16284
 21
2194.8
  0
LINE
  8
DATA
  6
CONTINUOUS
 62
     7
 10
1785.45534
 20
1669.8
 11
1785.45534
 21
2194.8
  0
LINE
  8
DATA
  6
CONTINUOUS
 62
     7
 10
1786.95534
 20
1669.8
 11
1786.95534
 21
2194.8
  0
LINE
  8
DATA
  6
CONTINUOUS
 62
     7
 10
2159.19016
 20
2314.0
 11
2159.19016
 21
1403.6
  0
LINE
  8
DATA
  6
CONTINUOUS
 62
     7
 10
2133.89016
 20
2314.0
 11
2133.89016
 21
1400.0
  0
LINE
  8
DATA
  6
CONTINUOUS
 62
     7
 10
2129.49016
 20
1400.0
 11
2129.49016
 21
2314.0
  0
LINE
  8
DATA
  6
CONTINUOUS
 62
     7
 10
2421.06416
 20
2314.0
 11
2421.06416
 21
1403.6
  0
LINE
  8
DATA
  6
CONTINUOUS
 62
     7
 10
2395.76416
 20
2314.0
 11
2395.76416
 21
1400.0
  0
LINE
  8
DATA
  6
CONTINUOUS
 62
     7
 10
2391.36416
 20
1400.0
 11
2391.36416
 21
2314.0
  0
LINE
  8
DATA
  6
CONTINUOUS
 62
     7
 10
1818.24784
 20
1669.8
 11
1818.24784
 21
2194.8
  0
LINE
  8
DATA
  6
CONTINUOUS
 62
     7
 10
1819.74784
 20
1669.8
 11
1819.74784
 21
2194.8
  0
LINE
  8
DATA
  6
CONTINUOUS
 62
     7
 10
1851.04034
 20
1669.8
 11
1851.04034
 21
2194.8
  0
LINE
  8
DATA
  6
CONTINUOUS
 62
     7
 10
1852.54034
 20
1669.8
 11
1852.54034
 21
2194.8
  0
LINE
  8
DATA
  6
CONTINUOUS
 62
     7
 10
1883.83284
 20
1669.8
 11
1883.83284
 21
2194.8
  0
LINE
  8
DATA
  6
CONTINUOUS
 62
     7
 10
1885.33284
 20
1669.8
 11
1885.33284
 21
2194.8
  0
LINE
  8
DATA
  6
CONTINUOUS
 62
     7
 10
1916.62534
 20
1669.8
 11
1916.62534
 21
2194.8
  0
LINE
  8
DATA
  6
CONTINUOUS
 62
     7
 10
1918.12534
 20
1669.8
 11
1918.12534
 21
2194.8
  0
LINE
  8
DATA
  6
CONTINUOUS
 62
     7
 10
1949.41784
 20
1669.8
 11
1949.41784
 21
2194.8
  0
LINE
  8
DATA
  6
CONTINUOUS
 62
     7
 10
1950.91784
 20
1669.8
 11
1950.91784
 21
2194.8
  0
LINE
  8
DATA
  6
CONTINUOUS
 62
     7
 10
1982.21034
 20
1669.8
 11
1982.21034
 21
2194.8
  0
LINE
  8
DATA
  6
CONTINUOUS
 62
     7
 10
1983.71034
 20
1669.8
 11
1983.71034
 21
2194.8
  0
LINE
  8
DATA
  6
CONTINUOUS
 62
     7
 10
2015.00284
 20
1669.8
 11
2015.00284
 21
2194.8
  0
LINE
  8
DATA
  6
CONTINUOUS
 62
     7
 10
2016.50284
 20
1669.8
 11
2016.50284
 21
2194.8
  0
LINE
  8
DATA
  6
CONTINUOUS
 62
     7
 10
2047.79534
 20
1669.8
 11
2047.79534
 21
2194.8
  0
LINE
  8
DATA
  6
CONTINUOUS
 62
     7
 10
2049.29534
 20
1669.8
 11
2049.29534
 21
2194.8
  0
LINE
  8
DATA
  6
CONTINUOUS
 62
     7
 10
2080.58784
 20
1669.8
 11
2080.58784
 21
2194.8
  0
LINE
  8
DATA
  6
CONTINUOUS
 62
     7
 10
2082.08784
 20
1669.8
 11
2082.08784
 21
2194.8
  0
LINE
  8
DATA
  6
CONTINUOUS
 62
     7
 10
2113.38034
 20
1669.8
 11
2113.38034
 21
2194.8
  0
LINE
  8
DATA
  6
CONTINUOUS
 62
     7
 10
2114.88034
 20
1669.8
 11
2114.88034
 21
2194.8
  0
ARC
  8
DATA
  6
CONTINUOUS
 62
     7
 10
1351.170725
 20
1619.334131
 40
832.697275
 50
349.080038
 51
9.328326
  0
ARC
  8
DATA
  6
CONTINUOUS
 62
     7
 10
1613.044725
 20
1619.334131
 40
832.697275
 50
349.080038
 51
9.328326
  0
LINE
  8
DATA
  6
CONTINUOUS
 62
     7
 10
1148.44534
 20
1649.2
 11
1148.44534
 21
1460.0
  0
LINE
  8
DATA
  6
CONTINUOUS
 62
     7
 10
1279.61534
 20
1649.2
 11
1279.61534
 21
1460.0
  0
LINE
  8
DATA
  6
CONTINUOUS
 62
     7
 10
1410.78534
 20
1649.2
 11
1410.78534
 21
1460.0
  0
LINE
  8
DATA
  6
CONTINUOUS
 62
     7
 10
1541.95534
 20
1649.2
 11
1541.95534
 21
1460.0
  0
LINE
  8
DATA
  6
CONTINUOUS
 62
     7
 10
1673.12534
 20
1649.2
 11
1673.12534
 21
1460.0
  0
TEXT
  8
DIMENSIONS
  6
CONTINUOUS
 62
     7
 10
2125.0
 20
656.25
 40
62.5
  1
(単位 : mm)
  7
TTF_DEFAULT
  0
LINE
  8
DATA
  6
CONTINUOUS
 62
     7
 10
2145.75456
 20
1400.0
 11
2159.19016
 21
1403.6
  0
LINE
  8
DATA
  6
CONTINUOUS
 62
     7
 10
2168.79016
 20
1461.59
 11
2159.19016
 21
1461.59
  0
LINE
  8
DATA
  6
CONTINUOUS
 62
     7
 10
2407.62856
 20
1400.0
 11
2421.06416
 21
1403.6
  0
LINE
  8
DATA
  6
CONTINUOUS
 62
     7
 10
2430.66416
 20
1461.59
 11
2421.06416
 21
1461.59
  0
LINE
  8
DIMENSIONS
  6
CONTINUOUS
 62
     7
 10
2000.0
 20
1460.0
 11
2000.0
 21
1560.0
  0
LINE
  8
DIMENSIONS
  6
CONTINUOUS
 62
     7
 10
2000.0
 20
1400.0
 11
2000.0
 21
1300.0
  0
LINE
  8
DIMENSIONS
  6
CONTINUOUS
 62
     7
 10
1991.667
 20
1510.0
 11
2000.0
 21
1460.0
  0
LINE
  8
DIMENSIONS
  6
CONTINUOUS
 62
     7
 10
2008.333
 20
1510.0
 11
2000.0
 21
1460.0
  0
LINE
  8
DIMENSIONS
  6
CONTINUOUS
 62
     7
 10
1991.667
 20
1350.0
 11
2000.0
 21
1400.0
  0
LINE
  8
DIMENSIONS
  6
CONTINUOUS
 62
     7
 10
2008.333
 20
1350.0
 11
2000.0
 21
1400.0
  0
TEXT
  8
DIMENSIONS
  6
CONTINUOUS
 62
     7
 10
2018.75
 20
1191.25
 40
62.5
  1
60
 50
90.0
  7
TTF_DEFAULT
  0
LINE
  8
DATA
  6
CONTINUOUS
 62
     7
 10
1599.5
 20
2335.0
 11
1599.5
 21
2314.0
  0
LINE
  8
DATA
  6
CONTINUOUS
 62
     7
 10
1642.5
 20
2335.0
 11
1642.5
 21
2314.0
  0
LINE
  8
DATA
  6
CONTINUOUS
 62
     7
 10
1599.5
 20
2335.0
 11
1642.5
 21
2335.0
  0
LINE
  8
DIMENSIONS
  6
CONTINUOUS
 62
     7
 10
1621.0
 20
2360.0
 11
1621.0
 21
2531.25
  0
LINE
  8
DIMENSIONS
  6
CONTINUOUS
 62
     7
 10
1571.0
 20
2491.667
 11
1621.0
 21
2500.0
  0
LINE
  8
DIMENSIONS
  6
CONTINUOUS
 62
     7
 10
1571.0
 20
2508.333
 11
1621.0
 21
2500.0
  0
LINE
  8
DIMENSIONS
  6
CONTINUOUS
 62
     7
 10
1750.0
 20
2314.0
 11
1750.0
 21
2214.0
  0
LINE
  8
DIMENSIONS
  6
CONTINUOUS
 62
     7
 10
1750.0
 20
2335.0
 11
1750.0
 21
2435.0
  0
LINE
  8
DIMENSIONS
  6
CONTINUOUS
 62
     7
 10
1667.5
 20
2335.0
 11
1781.25
 21
2335.0
  0
LINE
  8
DIMENSIONS
  6
CONTINUOUS
 62
     7
 10
1758.333
 20
2264.0
 11
1750.0
 21
2314.0
  0
LINE
  8
DIMENSIONS
  6
CONTINUOUS
 62
     7
 10
1741.667
 20
2264.0
 11
1750.0
 21
2314.0
  0
LINE
  8
DIMENSIONS
  6
CONTINUOUS
 62
     7
 10
1758.333
 20
2385.0
 11
1750.0
 21
2335.0
  0
LINE
  8
DIMENSIONS
  6
CONTINUOUS
 62
     7
 10
1741.667
 20
2385.0
 11
1750.0
 21
2335.0
  0
TEXT
  8
DIMENSIONS
  6
CONTINUOUS
 62
     7
 10
1768.75
 20
2466.25
 40
62.5
  1
21
 50
90.0
  7
TTF_DEFAULT
  0
TEXT
  8
DIMENSIONS
  6
CONTINUOUS
 62
     7
 10
1253.356207
 20
2731.25
 40
62.5
  1
24ch : 1483.8
  7
TTF_DEFAULT
  0
TEXT
  8
DIMENSIONS
  6
CONTINUOUS
 62
     7
 10
1253.356207
 20
2881.25
 40
62.5
  1
32ch : 1745.8
  7
TTF_DEFAULT
  0
TEXT
  8
DIMENSIONS
  6
CONTINUOUS
 62
     7
 10
1253.356207
 20
3031.25
 40
62.5
  1
40ch : 2007.8
  7
TTF_DEFAULT
  0
TEXT
  8
DIMENSIONS
  6
CONTINUOUS
 62
     7
 10
1253.356207
 20
3181.25
 40
62.5
  1
48ch : 2269.8
  7
TTF_DEFAULT
  0
TEXT
  8
DIMENSIONS
  6
CONTINUOUS
 62
     7
 10
1253.356207
 20
3331.25
 40
62.5
  1
56ch : 2531.8
  7
TTF_DEFAULT
  0
LINE
  8
DIMENSIONS
  6
CONTINUOUS
 62
     7
 10
2445.742
 20
2181.255869
 11
2445.742
 21
2881.25
  0
LINE
  8
DIMENSIONS
  6
CONTINUOUS
 62
     7
 10
2183.868
 20
2181.255869
 11
2183.868
 21
2731.25
  0
ARC
  8
DATA
  6
CONTINUOUS
 62
     7
 10
1351.170725
 20
2156.255869
 40
832.697275
 50
350.671674
 51
10.919962
  0
ARC
  8
DATA
  6
CONTINUOUS
 62
     7
 10
1613.044725
 20
2156.255869
 40
832.697275
 50
350.671674
 51
10.919962
  0
ARC
  8
DATA
  6
CONTINUOUS
 62
     7
 10
4362.032766
 20
1887.795
 40
2193.242606
 50
176.510644
 51
183.489356
  0
ARC
  8
DATA
  6
CONTINUOUS
 62
     7
 10
4623.906766
 20
1887.795
 40
2193.242606
 50
176.510644
 51
183.489356
  0
LINE
  8
DATA
  6
CONTINUOUS
 62
     7
 10
2151.48296
 20
2203.66
 11
2159.19016
 21
2258.5
  0
LINE
  8
DATA
  6
CONTINUOUS
 62
     7
 10
2413.35696
 20
2203.66
 11
2421.06416
 21
2258.5
  0
LINE
  8
DIMENSIONS
  6
CONTINUOUS
 62
     7
 10
2183.868
 20
2500.0
 11
2283.868
 21
2500.0
  0
LINE
  8
DIMENSIONS
  6
CONTINUOUS
 62
     7
 10
2168.79016
 20
2500.0
 11
2068.79016
 21
2500.0
  0
LINE
  8
DIMENSIONS
  6
CONTINUOUS
 62
     7
 10
2168.79016
 20
2339.0
 11
2168.79016
 21
2531.25
  0
LINE
  8
DIMENSIONS
  6
CONTINUOUS
 62
     7
 10
2233.868
 20
2508.333
 11
2183.868
 21
2500.0
  0
LINE
  8
DIMENSIONS
  6
CONTINUOUS
 62
     7
 10
2233.868
 20
2491.667
 11
2183.868
 21
2500.0
  0
LINE
  8
DIMENSIONS
  6
CONTINUOUS
 62
     7
 10
2118.79016
 20
2508.333
 11
2168.79016
 21
2500.0
  0
LINE
  8
DIMENSIONS
  6
CONTINUOUS
 62
     7
 10
2118.79016
 20
2491.667
 11
2168.79016
 21
2500.0
  0
TEXT
  8
DIMENSIONS
  6
CONTINUOUS
 62
     7
 10
2315.118
 20
2481.25
 40
62.5
  1
15
  7
TTF_DEFAULT
  0
LINE
  8
DIMENSIONS
  6
CONTINUOUS
 62
     7
 10
2395.742
 20
2841.667
 11
2445.742
 21
2850.0
  0
LINE
  8
DIMENSIONS
  6
CONTINUOUS
 62
     7
 10
2395.742
 20
2858.333
 11
2445.742
 21
2850.0
  0
LINE
  8
DIMENSIONS
  6
CONTINUOUS
 62
     7
 10
2133.868
 20
2691.667
 11
2183.868
 21
2700.0
  0
LINE
  8
DIMENSIONS
  6
CONTINUOUS
 62
     7
 10
2133.868
 20
2708.333
 11
2183.868
 21
2700.0
  0
TEXT
  8
SPEC
  6
CONTINUOUS
 62
     7
 10
453.125
 20
5796.875
 40
62.5
  1
クロストーク (1kHz , +20dBu)
  7
TTF_DEFAULT
  0
LINE
  8
SPEC
  6
CONTINUOUS
 62
     7
 10
437.5
 20
6625.0
 11
437.5
 21
4843.75
  0
TEXT
  8
SPEC
  6
CONTINUOUS
 62
     7
 10
453.125
 20
5140.625
 40
62.5
  1
寸法 / 重量
  7
TTF_DEFAULT
  0
TEXT
  8
SPEC
  6
CONTINUOUS
 62
     7
 10
468.75
 20
6656.25
 40
75.0
  1
仕様
  7
TTF_DEFAULT
  0
TEXT
  8
SPEC
  6
CONTINUOUS
 62
     7
 10
453.125
 20
6546.875
 40
62.5
  1
周波数特性
  7
TTF_DEFAULT
  0
TEXT
  8
SPEC
  6
CONTINUOUS
 62
     7
 10
453.125
 20
6453.125
 40
62.5
  1
全高調波歪率
  7
TTF_DEFAULT
  0
TEXT
  8
SPEC
  6
CONTINUOUS
 62
     7
 10
453.125
 20
6171.875
 40
62.5
  1
入力換算ノイズ
  7
TTF_DEFAULT
  0
TEXT
  8
SPEC
  6
CONTINUOUS
 62
     7
 10
453.125
 20
6078.125
 40
62.5
  1
残留ノイズ
  7
TTF_DEFAULT
  0
TEXT
  8
SPEC
  6
CONTINUOUS
 62
     7
 10
453.125
 20
5984.375
 40
62.5
  1
バスノイズ
  7
TTF_DEFAULT
  0
TEXT
  8
SPEC
  6
CONTINUOUS
 62
     7
 10
1265.625
 20
5384.375
 40
62.499984
  1
グループ-グループ間クロストーク：-90dB以上
  7
TTF_DEFAULT
  0
LINE
  8
SPEC
  6
CONTINUOUS
 62
     7
 10
1250.0
 20
6625.0
 11
1250.0
 21
4843.75
  0
TEXT
  8
SPEC
  6
CONTINUOUS
 62
     7
 10
1265.625
 20
5071.875
 40
62.499984
  1
32ch : 1745.8(W)×388.7(H)×914(D)mm / 約130kg
  7
TTF_DEFAULT
  0
TEXT
  8
SPEC
  6
CONTINUOUS
 62
     7
 10
1265.625
 20
5003.125
 40
62.499984
  1
40ch : 2007.8(W)×388.7(H)×914(D)mm / 約155kg
  7
TTF_DEFAULT
  0
TEXT
  8
SPEC
  6
CONTINUOUS
 62
     7
 10
1265.625
 20
4934.375
 40
62.499984
  1
48ch : 2269.8(W)×388.7(H)×914(D)mm / 約180kg
  7
TTF_DEFAULT
  0
TEXT
  8
SPEC
  6
CONTINUOUS
 62
     7
 10
1265.625
 20
4865.625
 40
62.499984
  1
56ch : 2531.8(W)×388.7(H)×914(D)mm / 約205kg
  7
TTF_DEFAULT
  0
TEXT
  8
SPEC
  6
CONTINUOUS
 62
     7
 10
1265.625
 20
5140.625
 40
62.5
  1
24ch : 1483.8(W)×388.7(H)×914(D)mm / 約105kg
  7
TTF_DEFAULT
  0
TEXT
  8
SPEC
  6
CONTINUOUS
 62
     7
 10
1265.625
 20
5315.625
 40
62.499984
  1
MIX-グループ間クロストーク：-90dB以上
  7
TTF_DEFAULT
  0
TEXT
  8
SPEC
  6
CONTINUOUS
 62
     7
 10
1265.625
 20
6546.875
 40
62.5
  1
XLR入力から任意の出力 : +0/-0.5d (20Hz～20kHz)
  7
TTF_DEFAULT
  0
TEXT
  8
SPEC
  6
CONTINUOUS
 62
     7
 10
1265.625
 20
5796.875
 40
62.5
  1
入力チャンネル　ミュート：100dB以上
  7
TTF_DEFAULT
  0
TEXT
  8
SPEC
  6
CONTINUOUS
 62
     7
 10
1265.625
 20
5728.125
 40
62.499984
  1
入力フェーダカットオフ：90dB以上
  7
TTF_DEFAULT
  0
TEXT
  8
SPEC
  6
CONTINUOUS
 62
     7
 10
1265.625
 20
5659.375
 40
62.499984
  1
入力パンポット分離：85dB以上
  7
TTF_DEFAULT
  0
TEXT
  8
SPEC
  6
CONTINUOUS
 62
     7
 10
1265.625
 20
5590.625
 40
62.499984
  1
入力A/B分離：80dB以上
  7
TTF_DEFAULT
  0
TEXT
  8
SPEC
  6
CONTINUOUS
 62
     7
 10
1265.625
 20
5521.875
 40
62.499984
  1
MIX L/R分離：100dB以上
  7
TTF_DEFAULT
  0
TEXT
  8
SPEC
  6
CONTINUOUS
 62
     7
 10
1265.625
 20
5453.125
 40
62.499984
  1
MIXルーティング分離：100dB以上
  7
TTF_DEFAULT
  0
TEXT
  8
HIBINO-BASE
  6
CONTINUOUS
 62
     7
 10
3718.75
 20
437.5
 40
62.5
  1
N.Sasaki
  7
TTF_DEFAULT
  0
LINE
  8
HIBINO-BASE
  6
CONTINUOUS
 62
     7
 10
2500.0
 20
625.0
 11
4750.0
 21
625.0
  0
TEXT
  8
HIBINO-BASE
  6
CONTINUOUS
 62
     7
 10
3700.0
 20
562.5
 40
62.5
  1
DRAWN
  7
TTF_DEFAULT
  0
LINE
  8
0
  6
CONTINUOUS
 62
     7
 10
2500.0
 20
940.5
 11
4750.0
 21
940.5
  0
LINE
  8
0
  6
CONTINUOUS
 62
     7
 10
2500.0
 20
934.5
 11
4750.0
 21
934.5
  0
LINE
  8
0
  6
CONTINUOUS
 62
     7
 10
2500.0
 20
940.5
 11
2500.0
 21
934.5
  0
LINE
  8
0
  6
CONTINUOUS
 62
     7
 10
4750.0
 20
940.5
 11
4750.0
 21
934.5
  0
SOLID
  8
HIBINO-BASE
  6
CONTINUOUS
 62
     7
 10
2500.0
 20
940.5
 11
4750.0
 21
940.5
 12
2500.0
 22
934.5
 13
4750.0
 23
934.5
  0
LINE
  8
DIMENSIONS
  6
CONTINUOUS
 62
     7
 10
3990.1
 20
1651.08
 11
3568.75
 21
1651.08
  0
LINE
  8
DIMENSIONS
  6
CONTINUOUS
 62
     7
 10
3874.59
 20
2203.66
 11
3668.75
 21
2203.66
  0
LINE
  8
DIMENSIONS
  6
CONTINUOUS
 62
     7
 10
3799.7227
 20
2314.0
 11
3418.75
 21
2314.0
  0
LINE
  8
DIMENSIONS
  6
CONTINUOUS
 62
     7
 10
3995.429
 20
1400.0
 11
3418.75
 21
1400.0
  0
LINE
  8
DATA
  6
CONTINUOUS
 62
     7
 10
2683.19216
 20
2314.0
 11
2683.19216
 21
1403.6
  0
LINE
  8
DATA
  6
CONTINUOUS
 62
     7
 10
2657.89216
 20
2314.0
 11
2657.89216
 21
1400.0
  0
LINE
  8
DATA
  6
CONTINUOUS
 62
     7
 10
2653.49216
 20
1400.0
 11
2653.49216
 21
2314.0
  0
LINE
  8
DATA
  6
CONTINUOUS
 62
     7
 10
2945.06616
 20
2314.0
 11
2945.06616
 21
1403.6
  0
LINE
  8
DATA
  6
CONTINUOUS
 62
     7
 10
2919.76616
 20
2314.0
 11
2919.76616
 21
1400.0
  0
LINE
  8
DATA
  6
CONTINUOUS
 62
     7
 10
2915.36616
 20
1400.0
 11
2915.36616
 21
2314.0
  0
ARC
  8
DATA
  6
CONTINUOUS
 62
     7
 10
1875.172725
 20
1619.334131
 40
832.697275
 50
349.080038
 51
9.328326
  0
ARC
  8
DATA
  6
CONTINUOUS
 62
     7
 10
2137.046725
 20
1619.334131
 40
832.697275
 50
349.080038
 51
9.328326
  0
LINE
  8
DATA
  6
CONTINUOUS
 62
     7
 10
3206.94016
 20
2314.0
 11
3206.94016
 21
1403.6
  0
LINE
  8
DATA
  6
CONTINUOUS
 62
     7
 10
3181.64016
 20
2314.0
 11
3181.64016
 21
1400.0
  0
LINE
  8
DATA
  6
CONTINUOUS
 62
     7
 10
3177.24016
 20
1400.0
 11
3177.24016
 21
2314.0
  0
ARC
  8
DATA
  6
CONTINUOUS
 62
     7
 10
2398.920725
 20
1619.334131
 40
832.697275
 50
349.080038
 51
9.328326
  0
LINE
  8
DIMENSIONS
  6
CONTINUOUS
 62
     7
 10
3600.0
 20
2314.0
 11
3600.0
 21
1651.08
  0
LINE
  8
DIMENSIONS
  6
CONTINUOUS
 62
     7
 10
3591.667
 20
1701.08
 11
3600.0
 21
1651.08
  0
LINE
  8
DIMENSIONS
  6
CONTINUOUS
 62
     7
 10
3608.333
 20
1701.08
 11
3600.0
 21
1651.08
  0
LINE
  8
DIMENSIONS
  6
CONTINUOUS
 62
     7
 10
3450.0
 20
2314.0
 11
3450.0
 21
1400.0
  0
TEXT
  8
HIBINO-BASE
  6
CONTINUOUS
 62
     7
 10
3075.0
 20
562.5
 40
62.5
  1
DATE
  7
TTF_DEFAULT
  0
TEXT
  8
HIBINO-BASE
  6
CONTINUOUS
 62
     7
 10
3093.75
 20
437.5
 40
62.5
  1
'99.12.
  7
TTF_DEFAULT
  0
LINE
  8
0
  6
CONTINUOUS
 62
     7
 10
2497.0
 20
375.0
 11
2497.0
 21
937.5
  0
LINE
  8
0
  6
CONTINUOUS
 62
     7
 10
2503.0
 20
375.0
 11
2503.0
 21
937.5
  0
LINE
  8
0
  6
CONTINUOUS
 62
     7
 10
2497.0
 20
375.0
 11
2503.0
 21
375.0
  0
LINE
  8
0
  6
CONTINUOUS
 62
     7
 10
2497.0
 20
937.5
 11
2503.0
 21
937.5
  0
SOLID
  8
HIBINO-BASE
  6
CONTINUOUS
 62
     7
 10
2497.0
 20
375.0
 11
2497.0
 21
937.5
 12
2503.0
 22
375.0
 13
2503.0
 23
937.5
  0
TEXT
  8
HIBINO-BASE
  6
CONTINUOUS
 62
     7
 10
2593.75
 20
406.25
 40
100.0
  1
A4
  7
TTF_DEFAULT
  0
LINE
  8
HIBINO-BASE
  6
CONTINUOUS
 62
     7
 10
2859.375
 20
406.25
 11
2953.125
 21
500.0
  0
TEXT
  8
HIBINO-BASE
  6
CONTINUOUS
 62
     7
 10
2843.75
 20
453.125
 40
75.0
  1
1
  7
TTF_DEFAULT
  0
TEXT
  8
HIBINO-BASE
  6
CONTINUOUS
 62
     7
 10
2512.5
 20
562.5
 40
56.25
  1
図面サイズ
  7
TTF_DEFAULT
  0
TEXT
  8
HIBINO-BASE
  6
CONTINUOUS
 62
     7
 10
2825.0
 20
562.5
 40
62.5
  1
SCALE
  7
TTF_DEFAULT
  0
LINE
  8
HIBINO-BASE
  6
CONTINUOUS
 62
     7
 10
3062.5
 20
375.0
 11
3062.5
 21
625.0
  0
LINE
  8
HIBINO-BASE
  6
CONTINUOUS
 62
     7
 10
2812.5
 20
375.0
 11
2812.5
 21
625.0
  0
TEXT
  8
HIBINO-BASE
  6
CONTINUOUS
 62
     7
 10
2937.5
 20
406.25
 40
75.0
  1
25
  7
TTF_DEFAULT
  0
TEXT
  8
HIBINO-BASE
  6
CONTINUOUS
 62
     7
 10
2512.5
 20
875.0
 40
62.5
  1
NOTE
  7
TTF_DEFAULT
  0
LINE
  8
DATA
  6
CONTINUOUS
 62
     7
 10
2669.75656
 20
1400.0
 11
2683.19216
 21
1403.6
  0
LINE
  8
DATA
  6
CONTINUOUS
 62
     7
 10
2692.79216
 20
1461.59
 11
2683.19216
 21
1461.59
  0
LINE
  8
DATA
  6
CONTINUOUS
 62
     7
 10
2931.63056
 20
1400.0
 11
2945.06616
 21
1403.6
  0
LINE
  8
DATA
  6
CONTINUOUS
 62
     7
 10
2954.66616
 20
1461.59
 11
2945.06616
 21
1461.59
  0
LINE
  8
HIBINO-BASE
  6
CONTINUOUS
 62
     7
 10
3375.0
 20
375.0
 11
3375.0
 21
937.5
  0
TEXT
  8
HIBINO-BASE
  6
CONTINUOUS
 62
     7
 10
3387.5
 20
562.5
 40
62.5
  1
DESIGN
  7
TTF_DEFAULT
  0
LINE
  8
HIBINO-BASE
  6
CONTINUOUS
 62
     7
 10
3687.5
 20
625.0
 11
3687.5
 21
375.0
  0
TEXT
  8
HIBINO-BASE
  6
CONTINUOUS
 62
     7
 10
3387.5
 20
875.0
 40
62.5
  1
TITLE
  7
TTF_DEFAULT
  0
LINE
  8
DATA
  6
CONTINUOUS
 62
     7
 10
3193.50456
 20
1400.0
 11
3206.94016
 21
1403.6
  0
LINE
  8
DATA
  6
CONTINUOUS
 62
     7
 10
3216.54016
 20
1461.59
 11
3206.94016
 21
1461.59
  0
LINE
  8
DIMENSIONS
  6
CONTINUOUS
 62
     7
 10
3441.667
 20
1450.0
 11
3450.0
 21
1400.0
  0
LINE
  8
DIMENSIONS
  6
CONTINUOUS
 62
     7
 10
3458.333
 20
1450.0
 11
3450.0
 21
1400.0
  0
LINE
  8
DIMENSIONS
  6
CONTINUOUS
 62
     7
 10
2969.744
 20
2181.255869
 11
2969.744
 21
3181.25
  0
LINE
  8
DIMENSIONS
  6
CONTINUOUS
 62
     7
 10
2707.87
 20
2181.255869
 11
2707.87
 21
3031.25
  0
ARC
  8
DATA
  6
CONTINUOUS
 62
     7
 10
1875.172725
 20
2156.255869
 40
832.697275
 50
350.671674
 51
10.919962
  0
ARC
  8
DATA
  6
CONTINUOUS
 62
     7
 10
2137.046725
 20
2156.255869
 40
832.697275
 50
350.671674
 51
10.919962
  0
ARC
  8
DATA
  6
CONTINUOUS
 62
     7
 10
4886.034766
 20
1887.795
 40
2193.242606
 50
176.510644
 51
183.489356
  0
ARC
  8
DATA
  6
CONTINUOUS
 62
     7
 10
5147.908766
 20
1887.795
 40
2193.242606
 50
176.510644
 51
183.489356
  0
LINE
  8
DATA
  6
CONTINUOUS
 62
     7
 10
2675.48496
 20
2203.66
 11
2683.19216
 21
2258.5
  0
LINE
  8
DATA
  6
CONTINUOUS
 62
     7
 10
2937.35896
 20
2203.66
 11
2945.06616
 21
2258.5
  0
LINE
  8
DIMENSIONS
  6
CONTINUOUS
 62
     7
 10
2919.744
 20
3141.667
 11
2969.744
 21
3150.0
  0
LINE
  8
DIMENSIONS
  6
CONTINUOUS
 62
     7
 10
2919.744
 20
3158.333
 11
2969.744
 21
3150.0
  0
LINE
  8
DIMENSIONS
  6
CONTINUOUS
 62
     7
 10
2657.87
 20
2991.667
 11
2707.87
 21
3000.0
  0
LINE
  8
DIMENSIONS
  6
CONTINUOUS
 62
     7
 10
2657.87
 20
3008.333
 11
2707.87
 21
3000.0
  0
LINE
  8
DIMENSIONS
  6
CONTINUOUS
 62
     7
 10
3231.618
 20
2181.255869
 11
3231.618
 21
3331.25
  0
TEXT
  8
DIMENSIONS
  6
CONTINUOUS
 62
     7
 10
3718.75
 20
2445.25
 40
62.5
  1
110.34
 50
90.0
  7
TTF_DEFAULT
  0
ARC
  8
DATA
  6
CONTINUOUS
 62
     7
 10
2398.920725
 20
2156.255869
 40
832.697275
 50
350.671674
 51
10.919962
  0
ARC
  8
DATA
  6
CONTINUOUS
 62
     7
 10
5409.782766
 20
1887.795
 40
2193.242606
 50
176.510644
 51
183.489356
  0
LINE
  8
DATA
  6
CONTINUOUS
 62
     7
 10
3199.23296
 20
2203.66
 11
3206.94016
 21
2258.5
  0
LINE
  8
DIMENSIONS
  6
CONTINUOUS
 62
     7
 10
3591.667
 20
2264.0
 11
3600.0
 21
2314.0
  0
LINE
  8
DIMENSIONS
  6
CONTINUOUS
 62
     7
 10
3608.333
 20
2264.0
 11
3600.0
 21
2314.0
  0
LINE
  8
DIMENSIONS
  6
CONTINUOUS
 62
     7
 10
3700.0
 20
2314.0
 11
3700.0
 21
2414.0
  0
LINE
  8
DIMENSIONS
  6
CONTINUOUS
 62
     7
 10
3700.0
 20
2203.66
 11
3700.0
 21
2103.66
  0
LINE
  8
DIMENSIONS
  6
CONTINUOUS
 62
     7
 10
3691.667
 20
2364.0
 11
3700.0
 21
2314.0
  0
LINE
  8
DIMENSIONS
  6
CONTINUOUS
 62
     7
 10
3708.333
 20
2364.0
 11
3700.0
 21
2314.0
  0
LINE
  8
DIMENSIONS
  6
CONTINUOUS
 62
     7
 10
3691.667
 20
2153.66
 11
3700.0
 21
2203.66
  0
LINE
  8
DIMENSIONS
  6
CONTINUOUS
 62
     7
 10
3708.333
 20
2153.66
 11
3700.0
 21
2203.66
  0
LINE
  8
DIMENSIONS
  6
CONTINUOUS
 62
     7
 10
3441.667
 20
2264.0
 11
3450.0
 21
2314.0
  0
LINE
  8
DIMENSIONS
  6
CONTINUOUS
 62
     7
 10
3458.333
 20
2264.0
 11
3450.0
 21
2314.0
  0
TEXT
  8
DIMENSIONS
  6
CONTINUOUS
 62
     7
 10
3418.75
 20
1800.525492
 40
62.5
  1
914
 50
90.0
  7
TTF_DEFAULT
  0
TEXT
  8
DIMENSIONS
  6
CONTINUOUS
 62
     7
 10
3568.75
 20
1880.885886
 40
62.5
  1
662.92
 50
90.0
  7
TTF_DEFAULT
  0
LINE
  8
DIMENSIONS
  6
CONTINUOUS
 62
     7
 10
3181.618
 20
3291.667
 11
3231.618
 21
3300.0
  0
LINE
  8
DIMENSIONS
  6
CONTINUOUS
 62
     7
 10
3181.618
 20
3308.333
 11
3231.618
 21
3300.0
  0
LINE
  8
DATA
  6
CONTINUOUS
 62
     7
 10
4160.0
 20
2314.0
 11
4160.0
 21
1477.5516
  0
LINE
  8
DATA
  6
CONTINUOUS
 62
     7
 10
4061.9017
 20
1461.59
 11
4061.9017
 21
2314.0
  0
LINE
  8
DATA
  6
CONTINUOUS
 62
     7
 10
3899.59
 20
2203.66
 11
4015.1
 21
1651.08
  0
LINE
  8
DATA
  6
CONTINUOUS
 62
     7
 10
4200.0
 20
2305.45
 11
4200.0
 21
1495.15
  0
ARC
  8
DATA
  6
CONTINUOUS
 62
     7
 10
2893.0364
 20
1602.99
 40
1180.3653
 50
353.119819
 51
6.880181
  0
LINE
  8
DIMENSIONS
  6
CONTINUOUS
 62
     7
 10
4400.0
 20
2314.0
 11
4400.0
 21
1495.15
  0
LINE
  8
DIMENSIONS
  6
CONTINUOUS
 62
     7
 10
4550.0
 20
1461.59
 11
4550.0
 21
2314.0
  0
TEXT
  8
HIBINO-BASE
  6
CONTINUOUS
 62
     7
 10
3968.250657
 20
214.783
 40
100.0
  1
ヒビノ株式会社
  7
TTF_DEFAULT
  0
TEXT
  8
HIBINO-BASE
  6
CONTINUOUS
 62
     7
 10
4325.0
 20
562.5
 40
62.5
  1
DRAWING NO.
  7
TTF_DEFAULT
  0
LINE
  8
DIMENSIONS
  6
CONTINUOUS
 62
     7
 10
4225.0
 20
1495.15
 11
4431.25
 21
1495.15
  0
LINE
  8
DIMENSIONS
  6
CONTINUOUS
 62
     7
 10
4109.71
 20
1461.59
 11
4581.25
 21
1461.59
  0
TEXT
  8
DIMENSIONS
  6
CONTINUOUS
 62
     7
 10
4331.25
 20
1231.25
 40
62.5
  1
115.29
  7
TTF_DEFAULT
  0
TEXT
  8
DATA
  6
CONTINUOUS
 62
     7
 10
3812.5
 20
721.875
 40
75.0
  1
Series FIVE
  7
TTF_DEFAULT
  0
TEXT
  8
HIBINO-BASE
  6
CONTINUOUS
 62
     7
 10
4012.5
 20
562.5
 40
62.5
  1
CHECK
  7
TTF_DEFAULT
  0
LINE
  8
HIBINO-BASE
  6
CONTINUOUS
 62
     7
 10
4312.5
 20
625.0
 11
4312.5
 21
375.0
  0
LINE
  8
HIBINO-BASE
  6
CONTINUOUS
 62
     7
 10
4000.0
 20
375.0
 11
4000.0
 21
625.0
  0
TEXT
  8
DATA
  6
CONTINUOUS
 62
     7
 10
3812.5
 20
828.125
 40
75.0
  1
Soundcraft
  7
TTF_DEFAULT
  0
LINE
  8
DATA
  6
CONTINUOUS
 62
     7
 10
4015.1
 20
1430.2228
 11
4015.1
 21
1651.08
  0
LINE
  8
DATA
  6
CONTINUOUS
 62
     7
 10
4078.9305
 20
1400.0
 11
4020.429
 21
1400.0
  0
LINE
  8
DATA
  6
CONTINUOUS
 62
     7
 10
4200.0
 20
1495.15
 11
4160.0
 21
1495.15
  0
LINE
  8
DATA
  6
CONTINUOUS
 62
     7
 10
4084.71
 20
1449.2311
 11
4078.6691
 21
1400.0319
  0
LINE
  8
DATA
  6
CONTINUOUS
 62
     7
 10
4084.71
 20
1461.59
 11
4084.71
 21
1449.2311
  0
LINE
  8
DATA
  6
CONTINUOUS
 62
     7
 10
4160.0
 20
1477.5516
 11
4084.71
 21
1461.59
  0
LINE
  8
DATA
  6
CONTINUOUS
 62
     7
 10
4015.1
 20
1430.2228
 11
4020.429
 21
1400.0
  0
LINE
  8
DATA
  6
CONTINUOUS
 62
     7
 10
4084.71
 20
1461.59
 11
4061.9017
 21
1461.59
  0
LINE
  8
DATA
  6
CONTINUOUS
 62
     7
 10
4200.0
 20
1535.15
 11
4160.0
 21
1535.15
  0
LINE
  8
DATA
  6
CONTINUOUS
 62
     7
 10
4090.0517
 20
1678.725
 11
4160.0
 21
1678.725
  0
LINE
  8
DATA
  6
CONTINUOUS
 62
     7
 10
4090.0517
 20
1678.725
 11
4090.0517
 21
1539.425
  0
LINE
  8
DATA
  6
CONTINUOUS
 62
     7
 10
4096.7517
 20
1678.725
 11
4096.7517
 21
1539.425
  0
LINE
  8
DATA
  6
CONTINUOUS
 62
     7
 10
4106.3517
 20
1678.725
 11
4106.3517
 21
1539.425
  0
LINE
  8
DATA
  6
CONTINUOUS
 62
     7
 10
4145.0017
 20
1678.725
 11
4145.0017
 21
1539.425
  0
LINE
  8
DATA
  6
CONTINUOUS
 62
     7
 10
4160.0
 20
1539.425
 11
4090.0517
 21
1539.425
  0
LINE
  8
DATA
  6
CONTINUOUS
 62
     7
 10
4026.2517
 20
1667.125
 11
4026.2517
 21
1549.6876
  0
LINE
  8
DATA
  6
CONTINUOUS
 62
     7
 10
4050.0267
 20
1667.125
 11
4050.0267
 21
1549.6876
  0
ARC
  8
DATA
  6
CONTINUOUS
 62
     7
 10
4038.1392
 20
1667.125
 40
11.8875
 50
0.0
 51
180.0
  0
ARC
  8
DATA
  6
CONTINUOUS
 62
     7
 10
4038.1392
 20
1549.6876
 40
11.8875
 50
180.0
 51
0.0
  0
LINE
  8
DIMENSIONS
  6
CONTINUOUS
 62
     7
 10
4391.667
 20
1545.15
 11
4400.0
 21
1495.15
  0
LINE
  8
DIMENSIONS
  6
CONTINUOUS
 62
     7
 10
4408.333
 20
1545.15
 11
4400.0
 21
1495.15
  0
LINE
  8
DIMENSIONS
  6
CONTINUOUS
 62
     7
 10
4160.0
 20
1350.0
 11
4060.0
 21
1350.0
  0
LINE
  8
DIMENSIONS
  6
CONTINUOUS
 62
     7
 10
4200.0
 20
1350.0
 11
4300.0
 21
1350.0
  0
LINE
  8
DIMENSIONS
  6
CONTINUOUS
 62
     7
 10
4160.0
 20
1452.5516
 11
4160.0
 21
1318.75
  0
LINE
  8
DIMENSIONS
  6
CONTINUOUS
 62
     7
 10
4110.0
 20
1341.667
 11
4160.0
 21
1350.0
  0
LINE
  8
DIMENSIONS
  6
CONTINUOUS
 62
     7
 10
4110.0
 20
1358.333
 11
4160.0
 21
1350.0
  0
LINE
  8
DIMENSIONS
  6
CONTINUOUS
 62
     7
 10
4250.0
 20
1341.667
 11
4200.0
 21
1350.0
  0
LINE
  8
DIMENSIONS
  6
CONTINUOUS
 62
     7
 10
4250.0
 20
1358.333
 11
4200.0
 21
1350.0
  0
LINE
  8
DIMENSIONS
  6
CONTINUOUS
 62
     7
 10
4084.71
 20
1250.0
 11
3984.71
 21
1250.0
  0
LINE
  8
DIMENSIONS
  6
CONTINUOUS
 62
     7
 10
4200.0
 20
1250.0
 11
4300.0
 21
1250.0
  0
LINE
  8
DIMENSIONS
  6
CONTINUOUS
 62
     7
 10
4084.71
 20
1424.2311
 11
4084.71
 21
1218.75
  0
LINE
  8
DIMENSIONS
  6
CONTINUOUS
 62
     7
 10
4034.71
 20
1241.667
 11
4084.71
 21
1250.0
  0
LINE
  8
DIMENSIONS
  6
CONTINUOUS
 62
     7
 10
4034.71
 20
1258.333
 11
4084.71
 21
1250.0
  0
LINE
  8
DIMENSIONS
  6
CONTINUOUS
 62
     7
 10
4250.0
 20
1241.667
 11
4200.0
 21
1250.0
  0
LINE
  8
DIMENSIONS
  6
CONTINUOUS
 62
     7
 10
4250.0
 20
1258.333
 11
4200.0
 21
1250.0
  0
LINE
  8
DIMENSIONS
  6
CONTINUOUS
 62
     7
 10
4015.1
 20
1100.0
 11
4200.0
 21
1100.0
  0
LINE
  8
DIMENSIONS
  6
CONTINUOUS
 62
     7
 10
4015.1
 20
1405.2228
 11
4015.1
 21
1068.75
  0
LINE
  8
DIMENSIONS
  6
CONTINUOUS
 62
     7
 10
4200.0
 20
1470.15
 11
4200.0
 21
1068.75
  0
LINE
  8
DIMENSIONS
  6
CONTINUOUS
 62
     7
 10
4065.1
 20
1091.667
 11
4015.1
 21
1100.0
  0
LINE
  8
DIMENSIONS
  6
CONTINUOUS
 62
     7
 10
4065.1
 20
1108.333
 11
4015.1
 21
1100.0
  0
LINE
  8
DIMENSIONS
  6
CONTINUOUS
 62
     7
 10
4150.0
 20
1091.667
 11
4200.0
 21
1100.0
  0
LINE
  8
DIMENSIONS
  6
CONTINUOUS
 62
     7
 10
4150.0
 20
1108.333
 11
4200.0
 21
1100.0
  0
TEXT
  8
DIMENSIONS
  6
CONTINUOUS
 62
     7
 10
4331.25
 20
1331.25
 40
62.5
  1
40
  7
TTF_DEFAULT
  0
TEXT
  8
DIMENSIONS
  6
CONTINUOUS
 62
     7
 10
4024.720722
 20
1131.25
 40
62.5
  1
184.9
  7
TTF_DEFAULT
  0
LINE
  8
DIMENSIONS
  6
CONTINUOUS
 62
     7
 10
4558.333
 20
1511.59
 11
4550.0
 21
1461.59
  0
LINE
  8
DIMENSIONS
  6
CONTINUOUS
 62
     7
 10
4541.667
 20
1511.59
 11
4550.0
 21
1461.59
  0
LINE
  8
DIMENSIONS
  6
CONTINUOUS
 62
     7
 10
4185.0
 20
2314.0
 11
4581.25
 21
2314.0
  0
LINE
  8
DIMENSIONS
  6
CONTINUOUS
 62
     7
 10
4200.0
 20
2330.45
 11
4200.0
 21
2631.25
  0
LINE
  8
DIMENSIONS
  6
CONTINUOUS
 62
     7
 10
3811.3
 20
2284.488501
 11
3811.3
 21
2631.25
  0
ARC
  8
DATA
  6
CONTINUOUS
 62
     7
 10
2893.0364
 20
2172.6
 40
1180.3653
 50
353.119819
 51
6.880181
  0
LINE
  8
DATA
  6
CONTINUOUS
 62
     7
 10
4090.0517
 20
2240.6
 11
4090.0517
 21
2101.3
  0
LINE
  8
DATA
  6
CONTINUOUS
 62
     7
 10
4096.7517
 20
2240.6
 11
4096.7517
 21
2101.3
  0
LINE
  8
DATA
  6
CONTINUOUS
 62
     7
 10
4106.3517
 20
2240.6
 11
4106.3517
 21
2101.3
  0
LINE
  8
DATA
  6
CONTINUOUS
 62
     7
 10
4145.0017
 20
2240.6
 11
4145.0017
 21
2101.3
  0
LINE
  8
DATA
  6
CONTINUOUS
 62
     7
 10
4064.9017
 20
1744.39
 11
4064.9017
 21
2031.2
  0
TEXT
  8
DATA
  6
CONTINUOUS
 62
     7
 10
4192.0
 20
1827.21546
 40
30.0
  1
SUBFRAME
 50
90.0
  7
TTF_DEFAULT
  0
LINE
  8
DATA
  6
CONTINUOUS
 62
     7
 10
4160.0
 20
2101.3
 11
4090.0517
 21
2101.3
  0
LINE
  8
DATA
  6
CONTINUOUS
 62
     7
 10
3824.7227
 20
2314.0
 11
3817.3307
 21
2293.6902
  0
ARC
  8
DATA
  6
CONTINUOUS
 62
     7
 10
3911.3
 20
2259.4883
 40
100.0
 50
160.000069
 51
179.999885
  0
LINE
  8
DATA
  6
CONTINUOUS
 62
     7
 10
3899.59
 20
2203.66
 11
3819.7357
 21
2216.3076
  0
LINE
  8
DATA
  6
CONTINUOUS
 62
     7
 10
3811.3
 20
2226.1845
 11
3811.3
 21
2259.4885
  0
ARC
  8
DATA
  6
CONTINUOUS
 62
     7
 10
3821.3
 20
2226.1845
 40
10.0
 50
180.0
 51
261.000268
  0
ARC
  8
DATA
  6
CONTINUOUS
 62
     7
 10
3924.55113
 20
2273.395807
 40
59.157812
 50
180.964509
 51
223.294935
  0
ARC
  8
DATA
  6
CONTINUOUS
 62
     7
 10
3831.634313
 20
2181.697668
 40
71.416521
 50
17.91011
 51
45.720849
  0
LINE
  8
DATA
  6
CONTINUOUS
 62
     7
 10
4200.0
 20
2305.45
 11
4160.0
 21
2305.45
  0
LINE
  8
DATA
  6
CONTINUOUS
 62
     7
 10
4200.0
 20
2265.45
 11
4160.0
 21
2265.45
  0
LINE
  8
DATA
  6
CONTINUOUS
 62
     7
 10
4090.0517
 20
2240.6
 11
4160.0
 21
2240.6
  0
LINE
  8
DATA
  6
CONTINUOUS
 62
     7
 10
4160.0
 20
2314.0
 11
3824.7227
 21
2314.0
  0
LINE
  8
DATA
  6
CONTINUOUS
 62
     7
 10
4093.0767
 20
2334.675
 11
4093.0767
 21
2314.0
  0
LINE
  8
DATA
  6
CONTINUOUS
 62
     7
 10
4135.4642
 20
2334.675
 11
4093.0767
 21
2334.675
  0
LINE
  8
DATA
  6
CONTINUOUS
 62
     7
 10
4135.4642
 20
2334.675
 11
4135.4642
 21
2314.0
  0
LINE
  8
DIMENSIONS
  6
CONTINUOUS
 62
     7
 10
4300.0
 20
2314.0
 11
4300.0
 21
2414.0
  0
LINE
  8
DIMENSIONS
  6
CONTINUOUS
 62
     7
 10
4300.0
 20
2305.45
 11
4300.0
 21
2205.45
  0
LINE
  8
DIMENSIONS
  6
CONTINUOUS
 62
     7
 10
4225.0
 20
2305.45
 11
4331.25
 21
2305.45
  0
LINE
  8
DIMENSIONS
  6
CONTINUOUS
 62
     7
 10
4291.667
 20
2364.0
 11
4300.0
 21
2314.0
  0
LINE
  8
DIMENSIONS
  6
CONTINUOUS
 62
     7
 10
4308.333
 20
2364.0
 11
4300.0
 21
2314.0
  0
LINE
  8
DIMENSIONS
  6
CONTINUOUS
 62
     7
 10
4291.667
 20
2255.45
 11
4300.0
 21
2305.45
  0
LINE
  8
DIMENSIONS
  6
CONTINUOUS
 62
     7
 10
4308.333
 20
2255.45
 11
4300.0
 21
2305.45
  0
LINE
  8
DIMENSIONS
  6
CONTINUOUS
 62
     7
 10
4391.667
 20
2264.0
 11
4400.0
 21
2314.0
  0
LINE
  8
DIMENSIONS
  6
CONTINUOUS
 62
     7
 10
4408.333
 20
2264.0
 11
4400.0
 21
2314.0
  0
LINE
  8
DIMENSIONS
  6
CONTINUOUS
 62
     7
 10
3899.59
 20
2450.0
 11
4200.0
 21
2450.0
  0
LINE
  8
DIMENSIONS
  6
CONTINUOUS
 62
     7
 10
3899.59
 20
2228.66
 11
3899.59
 21
2481.25
  0
LINE
  8
DIMENSIONS
  6
CONTINUOUS
 62
     7
 10
3949.59
 20
2441.667
 11
3899.59
 21
2450.0
  0
LINE
  8
DIMENSIONS
  6
CONTINUOUS
 62
     7
 10
3949.59
 20
2458.333
 11
3899.59
 21
2450.0
  0
LINE
  8
DIMENSIONS
  6
CONTINUOUS
 62
     7
 10
4150.0
 20
2441.667
 11
4200.0
 21
2450.0
  0
LINE
  8
DIMENSIONS
  6
CONTINUOUS
 62
     7
 10
4150.0
 20
2458.333
 11
4200.0
 21
2450.0
  0
LINE
  8
DIMENSIONS
  6
CONTINUOUS
 62
     7
 10
4200.0
 20
2600.0
 11
3811.3
 21
2600.0
  0
LINE
  8
DIMENSIONS
  6
CONTINUOUS
 62
     7
 10
4150.0
 20
2608.333
 11
4200.0
 21
2600.0
  0
LINE
  8
DIMENSIONS
  6
CONTINUOUS
 62
     7
 10
4150.0
 20
2591.667
 11
4200.0
 21
2600.0
  0
LINE
  8
DIMENSIONS
  6
CONTINUOUS
 62
     7
 10
3861.3
 20
2608.333
 11
3811.3
 21
2600.0
  0
LINE
  8
DIMENSIONS
  6
CONTINUOUS
 62
     7
 10
3861.3
 20
2591.667
 11
3811.3
 21
2600.0
  0
TEXT
  8
DIMENSIONS
  6
CONTINUOUS
 62
     7
 10
3961.009006
 20
2481.25
 40
62.5
  1
300.41
  7
TTF_DEFAULT
  0
TEXT
  8
DIMENSIONS
  6
CONTINUOUS
 62
     7
 10
4318.75
 20
2445.25
 40
62.5
  1
8.55
 50
90.0
  7
TTF_DEFAULT
  0
TEXT
  8
DIMENSIONS
  6
CONTINUOUS
 62
     7
 10
4368.75
 20
1815.789006
 40
62.5
  1
818.85
 50
90.0
  7
TTF_DEFAULT
  0
TEXT
  8
DIMENSIONS
  6
CONTINUOUS
 62
     7
 10
3922.820722
 20
2631.25
 40
62.5
  1
388.7
  7
TTF_DEFAULT
  0
LINE
  8
DIMENSIONS
  6
CONTINUOUS
 62
     7
 10
4558.333
 20
2264.0
 11
4550.0
 21
2314.0
  0
LINE
  8
DIMENSIONS
  6
CONTINUOUS
 62
     7
 10
4541.667
 20
2264.0
 11
4550.0
 21
2314.0
  0
TEXT
  8
DIMENSIONS
  6
CONTINUOUS
 62
     7
 10
4518.75
 20
1799.009006
 40
62.5
  1
852.41
 50
90.0
  7
TTF_DEFAULT
  0
LINE
  8
SPEC
  6
CONTINUOUS
 62
     7
 10
4000.0
 20
4843.75
 11
4000.0
 21
6625.0
  0
ENDSEC
  0
EOF
